ISO-10303-21;
HEADER;
FILE_DESCRIPTION (( 'STEP AP203' ),
    '1' );
FILE_NAME ('QB-CTZQWP-20-1550-M.STEP',
    '2020-12-24T01:50:08',
    ( '' ),
    ( '' ),
    'SwSTEP 2.0',
    'SolidWorks 2020',
    '' );
FILE_SCHEMA (( 'CONFIG_CONTROL_DESIGN' ));
ENDSEC;

DATA;
#1 = ORGANIZATION ( 'UNSPECIFIED', 'UNSPECIFIED', '' ) ;
#2 = DIRECTION ( 'NONE',  ( 0.000000000000000000, 0.000000000000000000, 1.000000000000000000 ) ) ;
#3 = LINE ( 'NONE', #185, #251 ) ;
#4 = CARTESIAN_POINT ( 'NONE',  ( -1.614212418857619014, 0.000000000000000000, 10.00000000000000000 ) ) ;
#5 = CARTESIAN_POINT ( 'NONE',  ( -1.614212418857619014, 0.000000000000000000, 10.00000000000000000 ) ) ;
#6 = PERSON ( 'UNSPECIFIED', 'UNSPECIFIED', 'UNSPECIFIED', ('UNSPECIFIED'), ('UNSPECIFIED'), ('UNSPECIFIED') ) ;
#7 = AXIS2_PLACEMENT_3D ( 'NONE', #23, #30, #259 ) ;
#8 = VERTEX_POINT ( 'NONE', #102 ) ;
#9 = APPROVAL_STATUS ( 'not_yet_approved' ) ;
#10 = ORIENTED_EDGE ( 'NONE', *, *, #263, .T. ) ;
#11 = CIRCLE ( 'NONE', #62, 10.00000000000000000 ) ;
#12 = ORIENTED_EDGE ( 'NONE', *, *, #41, .F. ) ;
#13 = EDGE_CURVE ( 'NONE', #123, #63, #11, .T. ) ;
#14 = AXIS2_PLACEMENT_3D ( 'NONE', #334, #208, #52 ) ;
#15 = COORDINATED_UNIVERSAL_TIME_OFFSET ( 8, 0, .AHEAD. ) ;
#16 = AXIS2_PLACEMENT_3D ( 'NONE', #88, #86, #165 ) ;
#17 = ADVANCED_FACE ( 'NONE', ( #154, #230 ), #105, .F. ) ;
#18 = APPROVAL_PERSON_ORGANIZATION ( #242, #59, #120 ) ;
#19 = CIRCLE ( 'NONE', #130, 12.69999999999999929 ) ;
#20 = ADVANCED_FACE ( 'NONE', ( #200 ), #326, .F. ) ;
#21 = LOCAL_TIME ( 9, 50, 8.000000000000000000, #36 ) ;
#22 = CIRCLE ( 'NONE', #224, 12.69999999999999929 ) ;
#23 = CARTESIAN_POINT ( 'NONE',  ( -2.500000000000000444, 0.000000000000000000, 0.000000000000000000 ) ) ;
#24 = DIRECTION ( 'NONE',  ( -1.000000000000000000, -0.000000000000000000, -0.000000000000000000 ) ) ;
#25 = CYLINDRICAL_SURFACE ( 'NONE', #303, 10.00000000000000000 ) ;
#26 = CIRCLE ( 'NONE', #153, 12.69999999999999929 ) ;
#27 = DIRECTION ( 'NONE',  ( -1.000000000000000000, -0.000000000000000000, -0.000000000000000000 ) ) ;
#28 = DIRECTION ( 'NONE',  ( -1.000000000000000000, -0.000000000000000000, -0.000000000000000000 ) ) ;
#29 = ORIENTED_EDGE ( 'NONE', *, *, #13, .F. ) ;
#30 = DIRECTION ( 'NONE',  ( 1.000000000000000000, 0.000000000000000000, 0.000000000000000000 ) ) ;
#31 = FACE_OUTER_BOUND ( 'NONE', #176, .T. ) ;
#32 = CC_DESIGN_DATE_AND_TIME_ASSIGNMENT ( #66, #38, ( #288 ) ) ;
#33 = ORIENTED_EDGE ( 'NONE', *, *, #290, .T. ) ;
#34 = ORIENTED_EDGE ( 'NONE', *, *, #13, .T. ) ;
#35 =( GEOMETRIC_REPRESENTATION_CONTEXT ( 3 ) GLOBAL_UNCERTAINTY_ASSIGNED_CONTEXT ( ( #166 ) ) GLOBAL_UNIT_ASSIGNED_CONTEXT ( ( #109, #207, #55 ) ) REPRESENTATION_CONTEXT ( 'NONE', 'WORKASPACE' ) );
#36 = COORDINATED_UNIVERSAL_TIME_OFFSET ( 8, 0, .AHEAD. ) ;
#37 = EDGE_LOOP ( 'NONE', ( #241, #294, #171, #219 ) ) ;
#38 = DATE_TIME_ROLE ( 'classification_date' ) ;
#39 = ORIENTED_EDGE ( 'NONE', *, *, #318, .F. ) ;
#40 = EDGE_LOOP ( 'NONE', ( #29, #243, #168, #137 ) ) ;
#41 = EDGE_CURVE ( 'NONE', #296, #276, #330, .T. ) ;
#42 = LOCAL_TIME ( 9, 50, 8.000000000000000000, #249 ) ;
#43 = AXIS2_PLACEMENT_3D ( 'NONE', #329, #255, #78 ) ;
#44 = EDGE_LOOP ( 'NONE', ( #91, #33, #273, #248 ) ) ;
#45 = FACE_OUTER_BOUND ( 'NONE', #194, .T. ) ;
#46 = DIRECTION ( 'NONE',  ( -1.000000000000000000, -0.000000000000000000, -0.000000000000000000 ) ) ;
#47 = AXIS2_PLACEMENT_3D ( 'NONE', #158, #309, #83 ) ;
#48 = CARTESIAN_POINT ( 'NONE',  ( 2.500000000000000444, 10.00000000000000000, 0.000000000000000000 ) ) ;
#49 = AXIS2_PLACEMENT_3D ( 'NONE', #56, #232, #114 ) ;
#50 = CARTESIAN_POINT ( 'NONE',  ( -3.000000000000000444, 1.224646799147353256E-15, -10.00000000000000000 ) ) ;
#51 = CARTESIAN_POINT ( 'NONE',  ( 2.999999999999999112, 0.000000000000000000, 0.000000000000000000 ) ) ;
#52 = DIRECTION ( 'NONE',  ( 0.000000000000000000, 0.000000000000000000, 1.000000000000000000 ) ) ;
#53 = DIRECTION ( 'NONE',  ( -1.000000000000000000, -0.000000000000000000, -0.000000000000000000 ) ) ;
#54 = DIRECTION ( 'NONE',  ( -1.000000000000000000, -0.000000000000000000, -0.000000000000000000 ) ) ;
#55 =( NAMED_UNIT ( * ) SI_UNIT ( $, .STERADIAN. ) SOLID_ANGLE_UNIT ( ) );
#56 = CARTESIAN_POINT ( 'NONE',  ( -3.000000000000000444, 0.000000000000000000, 0.000000000000000000 ) ) ;
#57 = LINE ( 'NONE', #139, #269 ) ;
#58 = VECTOR ( 'NONE', #260, 1000.000000000000000 ) ;
#59 = APPROVAL ( #9, 'UNSPECIFIED' ) ;
#60 = FACE_OUTER_BOUND ( 'NONE', #323, .T. ) ;
#61 = FACE_OUTER_BOUND ( 'NONE', #40, .T. ) ;
#62 = AXIS2_PLACEMENT_3D ( 'NONE', #51, #46, #223 ) ;
#63 = VERTEX_POINT ( 'NONE', #125 ) ;
#64 = VERTEX_POINT ( 'NONE', #306 ) ;
#65 = APPROVAL_PERSON_ORGANIZATION ( #245, #116, #319 ) ;
#66 = DATE_AND_TIME ( #193, #99 ) ;
#67 = CALENDAR_DATE ( 2020, 24, 12 ) ;
#68 = ORIENTED_EDGE ( 'NONE', *, *, #318, .T. ) ;
#69 = PRODUCT_DEFINITION ( 'UNKNOWN', '', #157, #283 ) ;
#70 = APPROVAL_ROLE ( '' ) ;
#71 = EDGE_LOOP ( 'NONE', ( #317, #173 ) ) ;
#72 = MECHANICAL_CONTEXT ( 'NONE', #238, 'mechanical' ) ;
#73 = ADVANCED_FACE ( 'NONE', ( #155, #45 ), #250, .F. ) ;
#74 = VERTEX_POINT ( 'NONE', #50 ) ;
#75 = PERSON_AND_ORGANIZATION_ROLE ( 'creator' ) ;
#76 = PERSON_AND_ORGANIZATION ( #6, #1 ) ;
#77 = ADVANCED_FACE ( 'NONE', ( #278 ), #178, .F. ) ;
#78 = DIRECTION ( 'NONE',  ( 0.000000000000000000, 0.000000000000000000, -1.000000000000000000 ) ) ;
#79 = DIRECTION ( 'NONE',  ( -0.000000000000000000, 0.000000000000000000, 1.000000000000000000 ) ) ;
#80 = EDGE_CURVE ( 'NONE', #299, #8, #129, .T. ) ;
#81 = CARTESIAN_POINT ( 'NONE',  ( -1.614212418857619014, 0.000000000000000000, 12.69999999999999929 ) ) ;
#82 = DIRECTION ( 'NONE',  ( 0.000000000000000000, 0.000000000000000000, 1.000000000000000000 ) ) ;
#83 = DIRECTION ( 'NONE',  ( 0.000000000000000000, 0.000000000000000000, -1.000000000000000000 ) ) ;
#84 = DIRECTION ( 'NONE',  ( -1.000000000000000000, -0.000000000000000000, -0.000000000000000000 ) ) ;
#85 = DIRECTION ( 'NONE',  ( -1.000000000000000000, -0.000000000000000000, -0.000000000000000000 ) ) ;
#86 = DIRECTION ( 'NONE',  ( -1.000000000000000000, -0.000000000000000000, -0.000000000000000000 ) ) ;
#87 = ADVANCED_FACE ( 'NONE', ( #280 ), #261, .F. ) ;
#88 = CARTESIAN_POINT ( 'NONE',  ( -3.000000000000000000, 0.000000000000000000, 0.000000000000000000 ) ) ;
#89 = CIRCLE ( 'NONE', #320, 10.00000000000000000 ) ;
#90 = CC_DESIGN_DATE_AND_TIME_ASSIGNMENT ( #199, #100, ( #69 ) ) ;
#91 = ORIENTED_EDGE ( 'NONE', *, *, #291, .F. ) ;
#92 = PERSON_AND_ORGANIZATION ( #6, #1 ) ;
#93 = ORIENTED_EDGE ( 'NONE', *, *, #187, .F. ) ;
#94 = DATE_AND_TIME ( #302, #227 ) ;
#95 = ORIENTED_EDGE ( 'NONE', *, *, #192, .T. ) ;
#96 = EDGE_LOOP ( 'NONE', ( #39, #312 ) ) ;
#97 = PERSON_AND_ORGANIZATION ( #6, #1 ) ;
#98 = CC_DESIGN_PERSON_AND_ORGANIZATION_ASSIGNMENT ( #76, #195, ( #157 ) ) ;
#99 = LOCAL_TIME ( 9, 50, 8.000000000000000000, #217 ) ;
#100 = DATE_TIME_ROLE ( 'creation_date' ) ;
#101 = DIRECTION ( 'NONE',  ( -1.000000000000000000, -0.000000000000000000, -0.000000000000000000 ) ) ;
#102 = CARTESIAN_POINT ( 'NONE',  ( 2.500000000000000888, 0.000000000000000000, 10.00000000000000000 ) ) ;
#103 = ADVANCED_FACE ( 'NONE', ( #60 ), #182, .T. ) ;
#104 = ADVANCED_BREP_SHAPE_REPRESENTATION ( 'QB-CTZQWP-20-1550-M', ( #210, #325 ), #35 ) ;
#105 = PLANE ( 'NONE',  #246 ) ;
#106 = CARTESIAN_POINT ( 'NONE',  ( 2.999999999999999112, 12.69999999999999929, 0.000000000000000000 ) ) ;
#107 = CIRCLE ( 'NONE', #152, 10.00000000000000000 ) ;
#108 = CARTESIAN_POINT ( 'NONE',  ( -1.614212418857619014, 0.000000000000000000, 0.000000000000000000 ) ) ;
#109 =( LENGTH_UNIT ( ) NAMED_UNIT ( * ) SI_UNIT ( .MILLI., .METRE. ) );
#110 = FACE_OUTER_BOUND ( 'NONE', #44, .T. ) ;
#111 = DIRECTION ( 'NONE',  ( -1.000000000000000000, -0.000000000000000000, -0.000000000000000000 ) ) ;
#112 = DIRECTION ( 'NONE',  ( 0.000000000000000000, 0.000000000000000000, 1.000000000000000000 ) ) ;
#113 = EDGE_CURVE ( 'NONE', #123, #299, #236, .T. ) ;
#114 = DIRECTION ( 'NONE',  ( 0.000000000000000000, 0.000000000000000000, 1.000000000000000000 ) ) ;
#115 = LINE ( 'NONE', #81, #58 ) ;
#116 = APPROVAL ( #220, 'UNSPECIFIED' ) ;
#117 = ORIENTED_EDGE ( 'NONE', *, *, #113, .F. ) ;
#118 = CIRCLE ( 'NONE', #7, 10.00000000000000000 ) ;
#119 = PERSON_AND_ORGANIZATION_ROLE ( 'classification_officer' ) ;
#120 = APPROVAL_ROLE ( '' ) ;
#121 = EDGE_LOOP ( 'NONE', ( #274, #34 ) ) ;
#122 = ORIENTED_EDGE ( 'NONE', *, *, #145, .T. ) ;
#123 = VERTEX_POINT ( 'NONE', #265 ) ;
#124 = ORIENTED_EDGE ( 'NONE', *, *, #327, .F. ) ;
#125 = CARTESIAN_POINT ( 'NONE',  ( 2.999999999999999112, 0.000000000000000000, 10.00000000000000000 ) ) ;
#126 = CIRCLE ( 'NONE', #49, 10.00000000000000000 ) ;
#127 = DIRECTION ( 'NONE',  ( 0.000000000000000000, 0.000000000000000000, 1.000000000000000000 ) ) ;
#128 = EDGE_CURVE ( 'NONE', #63, #8, #138, .T. ) ;
#129 = CIRCLE ( 'NONE', #177, 10.00000000000000000 ) ;
#130 = AXIS2_PLACEMENT_3D ( 'NONE', #164, #111, #284 ) ;
#131 = APPROVAL ( #247, 'UNSPECIFIED' ) ;
#132 = FACE_OUTER_BOUND ( 'NONE', #37, .T. ) ;
#133 = DIRECTION ( 'NONE',  ( 0.000000000000000000, 0.000000000000000000, 1.000000000000000000 ) ) ;
#134 = CARTESIAN_POINT ( 'NONE',  ( 3.000000000000000000, 0.000000000000000000, 12.69999999999999929 ) ) ;
#135 = DIRECTION ( 'NONE',  ( -1.000000000000000000, -0.000000000000000000, -0.000000000000000000 ) ) ;
#136 = ADVANCED_FACE ( 'NONE', ( #110 ), #332, .T. ) ;
#137 = ORIENTED_EDGE ( 'NONE', *, *, #128, .F. ) ;
#138 = LINE ( 'NONE', #4, #167 ) ;
#139 = CARTESIAN_POINT ( 'NONE',  ( -1.614212418857619014, 1.224646799147353256E-15, -10.00000000000000000 ) ) ;
#140 = CC_DESIGN_APPROVAL ( #131, ( #157 ) ) ;
#141 = DIRECTION ( 'NONE',  ( -1.000000000000000000, -0.000000000000000000, -0.000000000000000000 ) ) ;
#142 = ORIENTED_EDGE ( 'NONE', *, *, #291, .T. ) ;
#143 = CALENDAR_DATE ( 2020, 24, 12 ) ;
#144 = EDGE_LOOP ( 'NONE', ( #221, #234 ) ) ;
#145 = EDGE_CURVE ( 'NONE', #8, #299, #107, .T. ) ;
#146 = VERTEX_POINT ( 'NONE', #159 ) ;
#147 = AXIS2_PLACEMENT_3D ( 'NONE', #205, #101, #127 ) ;
#148 = PERSON_AND_ORGANIZATION ( #6, #1 ) ;
#149 = ORIENTED_EDGE ( 'NONE', *, *, #244, .F. ) ;
#150 = PERSON_AND_ORGANIZATION_ROLE ( 'design_owner' ) ;
#151 = ORIENTED_EDGE ( 'NONE', *, *, #172, .T. ) ;
#152 = AXIS2_PLACEMENT_3D ( 'NONE', #184, #54, #2 ) ;
#153 = AXIS2_PLACEMENT_3D ( 'NONE', #180, #135, #262 ) ;
#154 = FACE_OUTER_BOUND ( 'NONE', #96, .T. ) ;
#155 = FACE_BOUND ( 'NONE', #71, .T. ) ;
#156 = CC_DESIGN_PERSON_AND_ORGANIZATION_ASSIGNMENT ( #239, #75, ( #157 ) ) ;
#157 = PRODUCT_DEFINITION_FORMATION_WITH_SPECIFIED_SOURCE ( 'ANY', '', #256, .NOT_KNOWN. ) ;
#158 = CARTESIAN_POINT ( 'NONE',  ( -2.500000000000000444, 10.00000000000000000, 0.000000000000000000 ) ) ;
#159 = CARTESIAN_POINT ( 'NONE',  ( 3.000000000000000000, 1.555301434917138433E-15, -12.69999999999999929 ) ) ;
#160 = DIRECTION ( 'NONE',  ( 0.000000000000000000, 0.000000000000000000, 1.000000000000000000 ) ) ;
#161 = VERTEX_POINT ( 'NONE', #134 ) ;
#162 = DIRECTION ( 'NONE',  ( -1.000000000000000000, -0.000000000000000000, -0.000000000000000000 ) ) ;
#163 = PLANE ( 'NONE',  #47 ) ;
#164 = CARTESIAN_POINT ( 'NONE',  ( -3.000000000000000000, 0.000000000000000000, 0.000000000000000000 ) ) ;
#165 = DIRECTION ( 'NONE',  ( 0.000000000000000000, 0.000000000000000000, 1.000000000000000000 ) ) ;
#166 = UNCERTAINTY_MEASURE_WITH_UNIT (LENGTH_MEASURE( 1.000000000000000082E-05 ), #109, 'distance_accuracy_value', 'NONE');
#167 = VECTOR ( 'NONE', #235, 1000.000000000000000 ) ;
#168 = ORIENTED_EDGE ( 'NONE', *, *, #80, .T. ) ;
#169 = APPLICATION_CONTEXT ( 'configuration controlled 3d designs of mechanical parts and assemblies' ) ;
#170 = COORDINATED_UNIVERSAL_TIME_OFFSET ( 8, 0, .AHEAD. ) ;
#171 = ORIENTED_EDGE ( 'NONE', *, *, #202, .T. ) ;
#172 = EDGE_CURVE ( 'NONE', #196, #218, #19, .T. ) ;
#173 = ORIENTED_EDGE ( 'NONE', *, *, #202, .F. ) ;
#174 = DIRECTION ( 'NONE',  ( 1.000000000000000000, 0.000000000000000000, 0.000000000000000000 ) ) ;
#175 = CIRCLE ( 'NONE', #16, 12.69999999999999929 ) ;
#176 = EDGE_LOOP ( 'NONE', ( #93, #12 ) ) ;
#177 = AXIS2_PLACEMENT_3D ( 'NONE', #305, #84, #206 ) ;
#178 = PLANE ( 'NONE',  #228 ) ;
#179 = CARTESIAN_POINT ( 'NONE',  ( -3.000000000000000444, 0.000000000000000000, 0.000000000000000000 ) ) ;
#180 = CARTESIAN_POINT ( 'NONE',  ( 3.000000000000000000, 0.000000000000000000, 0.000000000000000000 ) ) ;
#181 = CC_DESIGN_APPROVAL ( #59, ( #288 ) ) ;
#182 = CYLINDRICAL_SURFACE ( 'NONE', #14, 12.69999999999999929 ) ;
#183 = DIRECTION ( 'NONE',  ( -1.000000000000000000, -0.000000000000000000, -0.000000000000000000 ) ) ;
#184 = CARTESIAN_POINT ( 'NONE',  ( 2.500000000000000888, 0.000000000000000000, 0.000000000000000000 ) ) ;
#185 = CARTESIAN_POINT ( 'NONE',  ( -1.614212418857619014, 1.555301434917138433E-15, -12.69999999999999929 ) ) ;
#186 = CC_DESIGN_PERSON_AND_ORGANIZATION_ASSIGNMENT ( #97, #150, ( #256 ) ) ;
#187 = EDGE_CURVE ( 'NONE', #276, #296, #118, .T. ) ;
#188 = DIRECTION ( 'NONE',  ( 0.000000000000000000, 0.000000000000000000, 1.000000000000000000 ) ) ;
#189 = CARTESIAN_POINT ( 'NONE',  ( -1.614212418857619014, 0.000000000000000000, 0.000000000000000000 ) ) ;
#190 = AXIS2_PLACEMENT_3D ( 'NONE', #328, #226, #279 ) ;
#191 = VECTOR ( 'NONE', #183, 1000.000000000000000 ) ;
#192 = EDGE_CURVE ( 'NONE', #64, #74, #126, .T. ) ;
#193 = CALENDAR_DATE ( 2020, 24, 12 ) ;
#194 = EDGE_LOOP ( 'NONE', ( #264, #151 ) ) ;
#195 = PERSON_AND_ORGANIZATION_ROLE ( 'design_supplier' ) ;
#196 = VERTEX_POINT ( 'NONE', #211 ) ;
#197 = CARTESIAN_POINT ( 'NONE',  ( 0.000000000000000000, 0.000000000000000000, 0.000000000000000000 ) ) ;
#198 = APPROVAL_DATE_TIME ( #94, #131 ) ;
#199 = DATE_AND_TIME ( #143, #21 ) ;
#200 = FACE_OUTER_BOUND ( 'NONE', #222, .T. ) ;
#201 = CC_DESIGN_PERSON_AND_ORGANIZATION_ASSIGNMENT ( #297, #119, ( #288 ) ) ;
#202 = EDGE_CURVE ( 'NONE', #74, #64, #331, .T. ) ;
#203 = DIRECTION ( 'NONE',  ( -1.000000000000000000, 0.000000000000000000, -0.000000000000000000 ) ) ;
#204 = DIRECTION ( 'NONE',  ( -0.000000000000000000, 0.000000000000000000, 1.000000000000000000 ) ) ;
#205 = CARTESIAN_POINT ( 'NONE',  ( -1.614212418857619014, 0.000000000000000000, 0.000000000000000000 ) ) ;
#206 = DIRECTION ( 'NONE',  ( 0.000000000000000000, 0.000000000000000000, 1.000000000000000000 ) ) ;
#207 =( NAMED_UNIT ( * ) PLANE_ANGLE_UNIT ( ) SI_UNIT ( $, .RADIAN. ) );
#208 = DIRECTION ( 'NONE',  ( -1.000000000000000000, -0.000000000000000000, -0.000000000000000000 ) ) ;
#209 = CARTESIAN_POINT ( 'NONE',  ( -1.614212418857619014, 0.000000000000000000, 0.000000000000000000 ) ) ;
#210 = MANIFOLD_SOLID_BREP ( 'Ðý×', #304 ) ;
#211 = CARTESIAN_POINT ( 'NONE',  ( -3.000000000000000000, 1.555301434917138433E-15, -12.69999999999999929 ) ) ;
#212 = CARTESIAN_POINT ( 'NONE',  ( 2.999999999999999112, 0.000000000000000000, 0.000000000000000000 ) ) ;
#213 = ADVANCED_FACE ( 'NONE', ( #132 ), #25, .F. ) ;
#214 = DIRECTION ( 'NONE',  ( 0.000000000000000000, 0.000000000000000000, 1.000000000000000000 ) ) ;
#215 = LOCAL_TIME ( 9, 50, 8.000000000000000000, #170 ) ;
#216 = ORIENTED_EDGE ( 'NONE', *, *, #41, .T. ) ;
#217 = COORDINATED_UNIVERSAL_TIME_OFFSET ( 8, 0, .AHEAD. ) ;
#218 = VERTEX_POINT ( 'NONE', #281 ) ;
#219 = ORIENTED_EDGE ( 'NONE', *, *, #263, .F. ) ;
#220 = APPROVAL_STATUS ( 'not_yet_approved' ) ;
#221 = ORIENTED_EDGE ( 'NONE', *, *, #145, .F. ) ;
#222 = EDGE_LOOP ( 'NONE', ( #117, #124, #300, #122 ) ) ;
#223 = DIRECTION ( 'NONE',  ( 0.000000000000000000, 0.000000000000000000, 1.000000000000000000 ) ) ;
#224 = AXIS2_PLACEMENT_3D ( 'NONE', #287, #333, #112 ) ;
#225 = ADVANCED_FACE ( 'NONE', ( #31 ), #163, .F. ) ;
#226 = DIRECTION ( 'NONE',  ( 1.000000000000000000, 0.000000000000000000, 0.000000000000000000 ) ) ;
#227 = LOCAL_TIME ( 9, 50, 8.000000000000000000, #15 ) ;
#228 = AXIS2_PLACEMENT_3D ( 'NONE', #48, #254, #204 ) ;
#229 = APPLICATION_PROTOCOL_DEFINITION ( 'international standard', 'config_control_design', 1994, #238 ) ;
#230 = FACE_BOUND ( 'NONE', #121, .T. ) ;
#231 = AXIS2_PLACEMENT_3D ( 'NONE', #179, #85, #188 ) ;
#232 = DIRECTION ( 'NONE',  ( -1.000000000000000000, -0.000000000000000000, -0.000000000000000000 ) ) ;
#233 = DIRECTION ( 'NONE',  ( -1.000000000000000000, -0.000000000000000000, -0.000000000000000000 ) ) ;
#234 = ORIENTED_EDGE ( 'NONE', *, *, #80, .F. ) ;
#235 = DIRECTION ( 'NONE',  ( -1.000000000000000000, -0.000000000000000000, -0.000000000000000000 ) ) ;
#236 = LINE ( 'NONE', #257, #313 ) ;
#237 = LINE ( 'NONE', #5, #191 ) ;
#238 = APPLICATION_CONTEXT ( 'configuration controlled 3d designs of mechanical parts and assemblies' ) ;
#239 = PERSON_AND_ORGANIZATION ( #6, #1 ) ;
#240 = APPROVAL_DATE_TIME ( #272, #59 ) ;
#241 = ORIENTED_EDGE ( 'NONE', *, *, #187, .T. ) ;
#242 = PERSON_AND_ORGANIZATION ( #6, #1 ) ;
#243 = ORIENTED_EDGE ( 'NONE', *, *, #113, .T. ) ;
#244 = EDGE_CURVE ( 'NONE', #218, #196, #175, .T. ) ;
#245 = PERSON_AND_ORGANIZATION ( #6, #1 ) ;
#246 = AXIS2_PLACEMENT_3D ( 'NONE', #106, #203, #79 ) ;
#247 = APPROVAL_STATUS ( 'not_yet_approved' ) ;
#248 = ORIENTED_EDGE ( 'NONE', *, *, #172, .F. ) ;
#249 = COORDINATED_UNIVERSAL_TIME_OFFSET ( 8, 0, .AHEAD. ) ;
#250 = PLANE ( 'NONE',  #43 ) ;
#251 = VECTOR ( 'NONE', #28, 1000.000000000000000 ) ;
#252 = EDGE_CURVE ( 'NONE', #161, #218, #115, .T. ) ;
#253 = CC_DESIGN_APPROVAL ( #116, ( #69 ) ) ;
#254 = DIRECTION ( 'NONE',  ( -1.000000000000000000, 0.000000000000000000, -0.000000000000000000 ) ) ;
#255 = DIRECTION ( 'NONE',  ( 1.000000000000000000, 0.000000000000000000, 0.000000000000000000 ) ) ;
#256 = PRODUCT ( 'QB-CTZQWP-20-1550-M', 'QB-CTZQWP-20-1550-M', '', ( #72 ) ) ;
#257 = CARTESIAN_POINT ( 'NONE',  ( -1.614212418857619014, 1.224646799147353256E-15, -10.00000000000000000 ) ) ;
#258 = CARTESIAN_POINT ( 'NONE',  ( 2.500000000000000888, 1.224646799147353256E-15, -10.00000000000000000 ) ) ;
#259 = DIRECTION ( 'NONE',  ( 0.000000000000000000, 0.000000000000000000, -1.000000000000000000 ) ) ;
#260 = DIRECTION ( 'NONE',  ( -1.000000000000000000, -0.000000000000000000, -0.000000000000000000 ) ) ;
#261 = CYLINDRICAL_SURFACE ( 'NONE', #311, 10.00000000000000000 ) ;
#262 = DIRECTION ( 'NONE',  ( 0.000000000000000000, 0.000000000000000000, 1.000000000000000000 ) ) ;
#263 = EDGE_CURVE ( 'NONE', #276, #64, #237, .T. ) ;
#264 = ORIENTED_EDGE ( 'NONE', *, *, #244, .T. ) ;
#265 = CARTESIAN_POINT ( 'NONE',  ( 2.999999999999999112, 1.224646799147353256E-15, -10.00000000000000000 ) ) ;
#266 = CC_DESIGN_PERSON_AND_ORGANIZATION_ASSIGNMENT ( #148, #295, ( #69 ) ) ;
#267 = EDGE_LOOP ( 'NONE', ( #292, #216, #10, #95 ) ) ;
#268 = PRODUCT_RELATED_PRODUCT_CATEGORY ( 'detail', '', ( #256 ) ) ;
#269 = VECTOR ( 'NONE', #289, 1000.000000000000000 ) ;
#270 = APPROVAL_PERSON_ORGANIZATION ( #92, #131, #70 ) ;
#271 = SECURITY_CLASSIFICATION_LEVEL ( 'unclassified' ) ;
#272 = DATE_AND_TIME ( #67, #215 ) ;
#273 = ORIENTED_EDGE ( 'NONE', *, *, #252, .T. ) ;
#274 = ORIENTED_EDGE ( 'NONE', *, *, #327, .T. ) ;
#275 = ADVANCED_FACE ( 'NONE', ( #61 ), #335, .F. ) ;
#276 = VERTEX_POINT ( 'NONE', #310 ) ;
#277 = APPLICATION_PROTOCOL_DEFINITION ( 'international standard', 'config_control_design', 1994, #169 ) ;
#278 = FACE_OUTER_BOUND ( 'NONE', #144, .T. ) ;
#279 = DIRECTION ( 'NONE',  ( 0.000000000000000000, 0.000000000000000000, -1.000000000000000000 ) ) ;
#280 = FACE_OUTER_BOUND ( 'NONE', #267, .T. ) ;
#281 = CARTESIAN_POINT ( 'NONE',  ( -3.000000000000000000, 0.000000000000000000, 12.69999999999999929 ) ) ;
#282 = CARTESIAN_POINT ( 'NONE',  ( -1.614212418857619014, 0.000000000000000000, 0.000000000000000000 ) ) ;
#283 = DESIGN_CONTEXT ( 'detailed design', #169, 'design' ) ;
#284 = DIRECTION ( 'NONE',  ( 0.000000000000000000, 0.000000000000000000, 1.000000000000000000 ) ) ;
#285 = CARTESIAN_POINT ( 'NONE',  ( -2.500000000000000444, 1.224646799147353256E-15, -10.00000000000000000 ) ) ;
#286 = EDGE_CURVE ( 'NONE', #296, #74, #57, .T. ) ;
#287 = CARTESIAN_POINT ( 'NONE',  ( 3.000000000000000000, 0.000000000000000000, 0.000000000000000000 ) ) ;
#288 = SECURITY_CLASSIFICATION ( '', '', #271 ) ;
#289 = DIRECTION ( 'NONE',  ( -1.000000000000000000, -0.000000000000000000, -0.000000000000000000 ) ) ;
#290 = EDGE_CURVE ( 'NONE', #146, #161, #26, .T. ) ;
#291 = EDGE_CURVE ( 'NONE', #146, #196, #3, .T. ) ;
#292 = ORIENTED_EDGE ( 'NONE', *, *, #286, .F. ) ;
#293 = AXIS2_PLACEMENT_3D ( 'NONE', #282, #162, #82 ) ;
#294 = ORIENTED_EDGE ( 'NONE', *, *, #286, .T. ) ;
#295 = PERSON_AND_ORGANIZATION_ROLE ( 'creator' ) ;
#296 = VERTEX_POINT ( 'NONE', #285 ) ;
#297 = PERSON_AND_ORGANIZATION ( #6, #1 ) ;
#298 = PRODUCT_DEFINITION_SHAPE ( 'NONE', 'NONE',  #69 ) ;
#299 = VERTEX_POINT ( 'NONE', #258 ) ;
#300 = ORIENTED_EDGE ( 'NONE', *, *, #128, .T. ) ;
#301 = DATE_AND_TIME ( #314, #42 ) ;
#302 = CALENDAR_DATE ( 2020, 24, 12 ) ;
#303 = AXIS2_PLACEMENT_3D ( 'NONE', #209, #233, #160 ) ;
#304 = CLOSED_SHELL ( 'NONE', ( #103, #213, #275, #77, #20, #87, #73, #136, #17, #225 ) ) ;
#305 = CARTESIAN_POINT ( 'NONE',  ( 2.500000000000000888, 0.000000000000000000, 0.000000000000000000 ) ) ;
#306 = CARTESIAN_POINT ( 'NONE',  ( -3.000000000000000444, 0.000000000000000000, 10.00000000000000000 ) ) ;
#307 = DIRECTION ( 'NONE',  ( 0.000000000000000000, 0.000000000000000000, 1.000000000000000000 ) ) ;
#308 = CC_DESIGN_SECURITY_CLASSIFICATION ( #288, ( #157 ) ) ;
#309 = DIRECTION ( 'NONE',  ( 1.000000000000000000, 0.000000000000000000, 0.000000000000000000 ) ) ;
#310 = CARTESIAN_POINT ( 'NONE',  ( -2.500000000000000444, 0.000000000000000000, 10.00000000000000000 ) ) ;
#311 = AXIS2_PLACEMENT_3D ( 'NONE', #108, #27, #307 ) ;
#312 = ORIENTED_EDGE ( 'NONE', *, *, #290, .F. ) ;
#313 = VECTOR ( 'NONE', #141, 1000.000000000000000 ) ;
#314 = CALENDAR_DATE ( 2020, 24, 12 ) ;
#315 = AXIS2_PLACEMENT_3D ( 'NONE', #189, #53, #214 ) ;
#316 = SHAPE_DEFINITION_REPRESENTATION ( #298, #104 ) ;
#317 = ORIENTED_EDGE ( 'NONE', *, *, #192, .F. ) ;
#318 = EDGE_CURVE ( 'NONE', #161, #146, #22, .T. ) ;
#319 = APPROVAL_ROLE ( '' ) ;
#320 = AXIS2_PLACEMENT_3D ( 'NONE', #212, #24, #133 ) ;
#321 = ORIENTED_EDGE ( 'NONE', *, *, #252, .F. ) ;
#322 = APPROVAL_DATE_TIME ( #301, #116 ) ;
#323 = EDGE_LOOP ( 'NONE', ( #68, #142, #149, #321 ) ) ;
#324 = DIRECTION ( 'NONE',  ( 0.000000000000000000, 0.000000000000000000, 1.000000000000000000 ) ) ;
#325 = AXIS2_PLACEMENT_3D ( 'NONE', #197, #324, #174 ) ;
#326 = CYLINDRICAL_SURFACE ( 'NONE', #147, 10.00000000000000000 ) ;
#327 = EDGE_CURVE ( 'NONE', #63, #123, #89, .T. ) ;
#328 = CARTESIAN_POINT ( 'NONE',  ( -2.500000000000000444, 0.000000000000000000, 0.000000000000000000 ) ) ;
#329 = CARTESIAN_POINT ( 'NONE',  ( -3.000000000000000000, 10.00000000000000000, 0.000000000000000000 ) ) ;
#330 = CIRCLE ( 'NONE', #190, 10.00000000000000000 ) ;
#331 = CIRCLE ( 'NONE', #231, 10.00000000000000000 ) ;
#332 = CYLINDRICAL_SURFACE ( 'NONE', #293, 12.69999999999999929 ) ;
#333 = DIRECTION ( 'NONE',  ( -1.000000000000000000, -0.000000000000000000, -0.000000000000000000 ) ) ;
#334 = CARTESIAN_POINT ( 'NONE',  ( -1.614212418857619014, 0.000000000000000000, 0.000000000000000000 ) ) ;
#335 = CYLINDRICAL_SURFACE ( 'NONE', #315, 10.00000000000000000 ) ;
ENDSEC;
END-ISO-10303-21;
